ISO-10303-21;
HEADER;
/* Generated by software containing ST-Developer
 * from STEP Tools, Inc. (www.steptools.com) 
 */

FILE_DESCRIPTION(
/* description */ (''),
/* implementation_level */ '2;1');

FILE_NAME(
/* name */ 'uWave.step',
/* time_stamp */ '2022-10-29T13:42:15+04:00',
/* author */ (''),
/* organization */ (''),
/* preprocessor_version */ 'ST-DEVELOPER v19.2',
/* originating_system */ 'Autodesk Translation Framework v11.17.0.187',

/* authorisation */ '');

FILE_SCHEMA (('AUTOMOTIVE_DESIGN { 1 0 10303 214 3 1 1 }'));
ENDSEC;

DATA;
#10=MECHANICAL_DESIGN_GEOMETRIC_PRESENTATION_REPRESENTATION('',(#20,#21,
#22),#402);
#11=SHAPE_REPRESENTATION_RELATIONSHIP('SRR','None',#409,#12);
#12=ADVANCED_BREP_SHAPE_REPRESENTATION('',(#13),#401);
#13=MANIFOLD_SOLID_BREP('Body1',#195);
#14=CONICAL_SURFACE('',#221,4.81447506815732,0.440954199935687);
#15=CONICAL_SURFACE('',#223,12.0358294502702,1.39626340159547);
#16=TOROIDAL_SURFACE('',#218,2.73874600782945,1.99999999999997);
#17=TOROIDAL_SURFACE('',#225,18.5000008981415,2.00000000000001);
#18=TOROIDAL_SURFACE('',#230,18.5000008981415,2.);
#19=TOROIDAL_SURFACE('',#235,18.5,2.);
#20=STYLED_ITEM('',(#419),#185);
#21=STYLED_ITEM('',(#420),#186);
#22=STYLED_ITEM('',(#418),#13);
#23=PLANE('',#211);
#24=PLANE('',#212);
#25=PLANE('',#214);
#26=FACE_OUTER_BOUND('',#39,.T.);
#27=FACE_OUTER_BOUND('',#40,.T.);
#28=FACE_OUTER_BOUND('',#41,.T.);
#29=FACE_OUTER_BOUND('',#42,.T.);
#30=FACE_OUTER_BOUND('',#43,.T.);
#31=FACE_OUTER_BOUND('',#44,.T.);
#32=FACE_OUTER_BOUND('',#45,.T.);
#33=FACE_OUTER_BOUND('',#46,.T.);
#34=FACE_OUTER_BOUND('',#47,.T.);
#35=FACE_OUTER_BOUND('',#48,.T.);
#36=FACE_OUTER_BOUND('',#49,.T.);
#37=FACE_OUTER_BOUND('',#50,.T.);
#38=FACE_OUTER_BOUND('',#51,.T.);
#39=EDGE_LOOP('',(#126,#127,#128,#129,#130,#131,#132));
#40=EDGE_LOOP('',(#133));
#41=EDGE_LOOP('',(#134));
#42=EDGE_LOOP('',(#135));
#43=EDGE_LOOP('',(#136,#137,#138,#139));
#44=EDGE_LOOP('',(#140,#141,#142,#143));
#45=EDGE_LOOP('',(#144,#145,#146,#147));
#46=EDGE_LOOP('',(#148,#149,#150,#151,#152,#153,#154,#155,#156,#157));
#47=EDGE_LOOP('',(#158,#159,#160,#161));
#48=EDGE_LOOP('',(#162,#163,#164,#165));
#49=EDGE_LOOP('',(#166,#167,#168,#169));
#50=EDGE_LOOP('',(#170,#171,#172,#173));
#51=EDGE_LOOP('',(#174,#175,#176,#177));
#52=CIRCLE('',#210,1.25);
#53=CIRCLE('',#213,18.5);
#54=CIRCLE('',#215,2.75);
#55=CIRCLE('',#217,2.74999999999968);
#56=CIRCLE('',#219,4.40458848924963);
#57=CIRCLE('',#220,1.99999999999997);
#58=CIRCLE('',#222,5.22436164706501);
#59=CIRCLE('',#224,18.8472972534754);
#60=CIRCLE('',#226,18.5);
#61=CIRCLE('',#227,2.00000000000001);
#62=CIRCLE('',#229,18.5);
#63=CIRCLE('',#231,20.5);
#64=CIRCLE('',#232,2.);
#65=CIRCLE('',#234,20.5);
#66=CIRCLE('',#236,2.);
#67=LINE('',#351,#74);
#68=LINE('',#367,#75);
#69=LINE('',#375,#76);
#70=LINE('',#379,#77);
#71=LINE('',#380,#78);
#72=LINE('',#388,#79);
#73=LINE('',#396,#80);
#74=VECTOR('',#241,1.25);
#75=VECTOR('',#258,2.74999999999984);
#76=VECTOR('',#269,4.81447506815732);
#77=VECTOR('',#274,12.0358294502702);
#78=VECTOR('',#275,12.0358294502702);
#79=VECTOR('',#286,18.5);
#80=VECTOR('',#297,20.5);
#81=B_SPLINE_CURVE_WITH_KNOTS('',3,(#306,#307,#308,#309,#310,#311,#312,
#313,#314,#315),.UNSPECIFIED.,.F.,.F.,(4,2,2,2,4),(0.,0.0516494774073404,
0.103298954814681,0.154494371628427,0.204203967017896),.UNSPECIFIED.);
#82=B_SPLINE_CURVE_WITH_KNOTS('',3,(#317,#318,#319,#320,#321,#322,#323,
#324,#325,#326),.UNSPECIFIED.,.F.,.F.,(4,2,2,2,4),(0.586617291228774,0.628590340931744,
0.671718831169483,0.715631477836575,0.759544124503666),.UNSPECIFIED.);
#83=B_SPLINE_CURVE_WITH_KNOTS('',3,(#328,#329,#330,#331,#332,#333,#334,
#335,#336,#337,#338,#339,#340,#341,#342,#343,#344,#345,#346,#347,#348,#349),
 .UNSPECIFIED.,.F.,.F.,(4,2,2,2,2,2,2,2,2,2,4),(0.205524450537629,0.205689788442173,
0.256885205255919,0.308080622069665,0.359730099477005,0.411379576884345,
0.455292223551437,0.499204870218528,0.542333360456267,0.585461850694006,
0.586617291228774),.UNSPECIFIED.);
#84=B_SPLINE_CURVE_WITH_KNOTS('',3,(#353,#354,#355,#356),.UNSPECIFIED.,
 .F.,.F.,(4,4),(0.204203967017896,0.205524450537629),.UNSPECIFIED.);
#85=VERTEX_POINT('',#304);
#86=VERTEX_POINT('',#305);
#87=VERTEX_POINT('',#316);
#88=VERTEX_POINT('',#327);
#89=VERTEX_POINT('',#350);
#90=VERTEX_POINT('',#359);
#91=VERTEX_POINT('',#362);
#92=VERTEX_POINT('',#365);
#93=VERTEX_POINT('',#369);
#94=VERTEX_POINT('',#373);
#95=VERTEX_POINT('',#377);
#96=VERTEX_POINT('',#382);
#97=VERTEX_POINT('',#386);
#98=VERTEX_POINT('',#390);
#99=VERTEX_POINT('',#394);
#100=EDGE_CURVE('',#85,#86,#81,.T.);
#101=EDGE_CURVE('',#87,#85,#82,.T.);
#102=EDGE_CURVE('',#88,#87,#83,.T.);
#103=EDGE_CURVE('',#88,#89,#67,.T.);
#104=EDGE_CURVE('',#89,#89,#52,.T.);
#105=EDGE_CURVE('',#86,#88,#84,.T.);
#106=EDGE_CURVE('',#90,#90,#53,.T.);
#107=EDGE_CURVE('',#91,#91,#54,.T.);
#108=EDGE_CURVE('',#92,#92,#55,.T.);
#109=EDGE_CURVE('',#92,#91,#68,.T.);
#110=EDGE_CURVE('',#93,#93,#56,.T.);
#111=EDGE_CURVE('',#93,#92,#57,.T.);
#112=EDGE_CURVE('',#94,#94,#58,.T.);
#113=EDGE_CURVE('',#94,#93,#69,.T.);
#114=EDGE_CURVE('',#95,#95,#59,.T.);
#115=EDGE_CURVE('',#95,#86,#70,.T.);
#116=EDGE_CURVE('',#87,#94,#71,.T.);
#117=EDGE_CURVE('',#96,#96,#60,.T.);
#118=EDGE_CURVE('',#96,#95,#61,.T.);
#119=EDGE_CURVE('',#97,#97,#62,.T.);
#120=EDGE_CURVE('',#97,#96,#72,.T.);
#121=EDGE_CURVE('',#98,#98,#63,.T.);
#122=EDGE_CURVE('',#98,#97,#64,.T.);
#123=EDGE_CURVE('',#99,#99,#65,.T.);
#124=EDGE_CURVE('',#99,#98,#73,.T.);
#125=EDGE_CURVE('',#90,#99,#66,.T.);
#126=ORIENTED_EDGE('',*,*,#100,.F.);
#127=ORIENTED_EDGE('',*,*,#101,.F.);
#128=ORIENTED_EDGE('',*,*,#102,.F.);
#129=ORIENTED_EDGE('',*,*,#103,.T.);
#130=ORIENTED_EDGE('',*,*,#104,.T.);
#131=ORIENTED_EDGE('',*,*,#103,.F.);
#132=ORIENTED_EDGE('',*,*,#105,.F.);
#133=ORIENTED_EDGE('',*,*,#104,.F.);
#134=ORIENTED_EDGE('',*,*,#106,.T.);
#135=ORIENTED_EDGE('',*,*,#107,.F.);
#136=ORIENTED_EDGE('',*,*,#108,.F.);
#137=ORIENTED_EDGE('',*,*,#109,.T.);
#138=ORIENTED_EDGE('',*,*,#107,.T.);
#139=ORIENTED_EDGE('',*,*,#109,.F.);
#140=ORIENTED_EDGE('',*,*,#110,.F.);
#141=ORIENTED_EDGE('',*,*,#111,.T.);
#142=ORIENTED_EDGE('',*,*,#108,.T.);
#143=ORIENTED_EDGE('',*,*,#111,.F.);
#144=ORIENTED_EDGE('',*,*,#112,.F.);
#145=ORIENTED_EDGE('',*,*,#113,.T.);
#146=ORIENTED_EDGE('',*,*,#110,.T.);
#147=ORIENTED_EDGE('',*,*,#113,.F.);
#148=ORIENTED_EDGE('',*,*,#114,.F.);
#149=ORIENTED_EDGE('',*,*,#115,.T.);
#150=ORIENTED_EDGE('',*,*,#105,.T.);
#151=ORIENTED_EDGE('',*,*,#102,.T.);
#152=ORIENTED_EDGE('',*,*,#116,.T.);
#153=ORIENTED_EDGE('',*,*,#112,.T.);
#154=ORIENTED_EDGE('',*,*,#116,.F.);
#155=ORIENTED_EDGE('',*,*,#101,.T.);
#156=ORIENTED_EDGE('',*,*,#100,.T.);
#157=ORIENTED_EDGE('',*,*,#115,.F.);
#158=ORIENTED_EDGE('',*,*,#117,.F.);
#159=ORIENTED_EDGE('',*,*,#118,.T.);
#160=ORIENTED_EDGE('',*,*,#114,.T.);
#161=ORIENTED_EDGE('',*,*,#118,.F.);
#162=ORIENTED_EDGE('',*,*,#119,.F.);
#163=ORIENTED_EDGE('',*,*,#120,.T.);
#164=ORIENTED_EDGE('',*,*,#117,.T.);
#165=ORIENTED_EDGE('',*,*,#120,.F.);
#166=ORIENTED_EDGE('',*,*,#121,.F.);
#167=ORIENTED_EDGE('',*,*,#122,.T.);
#168=ORIENTED_EDGE('',*,*,#119,.T.);
#169=ORIENTED_EDGE('',*,*,#122,.F.);
#170=ORIENTED_EDGE('',*,*,#123,.F.);
#171=ORIENTED_EDGE('',*,*,#124,.T.);
#172=ORIENTED_EDGE('',*,*,#121,.T.);
#173=ORIENTED_EDGE('',*,*,#124,.F.);
#174=ORIENTED_EDGE('',*,*,#106,.F.);
#175=ORIENTED_EDGE('',*,*,#125,.T.);
#176=ORIENTED_EDGE('',*,*,#123,.T.);
#177=ORIENTED_EDGE('',*,*,#125,.F.);
#178=CYLINDRICAL_SURFACE('',#209,1.25);
#179=CYLINDRICAL_SURFACE('',#216,2.74999999999984);
#180=CYLINDRICAL_SURFACE('',#228,18.5);
#181=CYLINDRICAL_SURFACE('',#233,20.5);
#182=ADVANCED_FACE('',(#26),#178,.F.);
#183=ADVANCED_FACE('',(#27),#23,.T.);
#184=ADVANCED_FACE('',(#28),#24,.T.);
#185=ADVANCED_FACE('',(#29),#25,.T.);
#186=ADVANCED_FACE('',(#30),#179,.T.);
#187=ADVANCED_FACE('',(#31),#16,.T.);
#188=ADVANCED_FACE('',(#32),#14,.T.);
#189=ADVANCED_FACE('',(#33),#15,.T.);
#190=ADVANCED_FACE('',(#34),#17,.T.);
#191=ADVANCED_FACE('',(#35),#180,.T.);
#192=ADVANCED_FACE('',(#36),#18,.T.);
#193=ADVANCED_FACE('',(#37),#181,.T.);
#194=ADVANCED_FACE('',(#38),#19,.T.);
#195=CLOSED_SHELL('',(#182,#183,#184,#185,#186,#187,#188,#189,#190,#191,
#192,#193,#194));
#196=DERIVED_UNIT_ELEMENT(#198,1.);
#197=DERIVED_UNIT_ELEMENT(#404,-3.);
#198=(
MASS_UNIT()
NAMED_UNIT(*)
SI_UNIT(.KILO.,.GRAM.)
);
#199=DERIVED_UNIT((#196,#197));
#200=MEASURE_REPRESENTATION_ITEM('density measure',
POSITIVE_RATIO_MEASURE(1060.),#199);
#201=PROPERTY_DEFINITION_REPRESENTATION(#206,#203);
#202=PROPERTY_DEFINITION_REPRESENTATION(#207,#204);
#203=REPRESENTATION('material name',(#205),#401);
#204=REPRESENTATION('density',(#200),#401);
#205=DESCRIPTIVE_REPRESENTATION_ITEM('ABS Plastic','ABS Plastic');
#206=PROPERTY_DEFINITION('material property','material name',#411);
#207=PROPERTY_DEFINITION('material property','density of part',#411);
#208=AXIS2_PLACEMENT_3D('placement',#302,#237,#238);
#209=AXIS2_PLACEMENT_3D('',#303,#239,#240);
#210=AXIS2_PLACEMENT_3D('',#352,#242,#243);
#211=AXIS2_PLACEMENT_3D('',#357,#244,#245);
#212=AXIS2_PLACEMENT_3D('',#358,#246,#247);
#213=AXIS2_PLACEMENT_3D('',#360,#248,#249);
#214=AXIS2_PLACEMENT_3D('',#361,#250,#251);
#215=AXIS2_PLACEMENT_3D('',#363,#252,#253);
#216=AXIS2_PLACEMENT_3D('',#364,#254,#255);
#217=AXIS2_PLACEMENT_3D('',#366,#256,#257);
#218=AXIS2_PLACEMENT_3D('',#368,#259,#260);
#219=AXIS2_PLACEMENT_3D('',#370,#261,#262);
#220=AXIS2_PLACEMENT_3D('',#371,#263,#264);
#221=AXIS2_PLACEMENT_3D('',#372,#265,#266);
#222=AXIS2_PLACEMENT_3D('',#374,#267,#268);
#223=AXIS2_PLACEMENT_3D('',#376,#270,#271);
#224=AXIS2_PLACEMENT_3D('',#378,#272,#273);
#225=AXIS2_PLACEMENT_3D('',#381,#276,#277);
#226=AXIS2_PLACEMENT_3D('',#383,#278,#279);
#227=AXIS2_PLACEMENT_3D('',#384,#280,#281);
#228=AXIS2_PLACEMENT_3D('',#385,#282,#283);
#229=AXIS2_PLACEMENT_3D('',#387,#284,#285);
#230=AXIS2_PLACEMENT_3D('',#389,#287,#288);
#231=AXIS2_PLACEMENT_3D('',#391,#289,#290);
#232=AXIS2_PLACEMENT_3D('',#392,#291,#292);
#233=AXIS2_PLACEMENT_3D('',#393,#293,#294);
#234=AXIS2_PLACEMENT_3D('',#395,#295,#296);
#235=AXIS2_PLACEMENT_3D('',#397,#298,#299);
#236=AXIS2_PLACEMENT_3D('',#398,#300,#301);
#237=DIRECTION('axis',(0.,0.,1.));
#238=DIRECTION('refdir',(1.,0.,0.));
#239=DIRECTION('center_axis',(1.33226762955019E-16,0.,-1.));
#240=DIRECTION('ref_axis',(-1.,0.,-1.33226762955019E-16));
#241=DIRECTION('',(1.33226762955019E-16,0.,-1.));
#242=DIRECTION('center_axis',(1.23793611074961E-16,0.,-1.));
#243=DIRECTION('ref_axis',(-1.,0.,-1.23793611074961E-16));
#244=DIRECTION('center_axis',(-1.23793611074961E-16,0.,1.));
#245=DIRECTION('ref_axis',(-1.,0.,-1.23793611074961E-16));
#246=DIRECTION('center_axis',(1.23793611074961E-16,0.,-1.));
#247=DIRECTION('ref_axis',(-1.,0.,-1.23793611074961E-16));
#248=DIRECTION('center_axis',(1.23793611074961E-16,0.,-1.));
#249=DIRECTION('ref_axis',(1.,0.,1.23793611074961E-16));
#250=DIRECTION('center_axis',(-1.23793611074961E-16,0.,1.));
#251=DIRECTION('ref_axis',(1.,0.,1.23793611074961E-16));
#252=DIRECTION('center_axis',(1.23793611074961E-16,0.,-1.));
#253=DIRECTION('ref_axis',(1.,0.,1.23793611074961E-16));
#254=DIRECTION('center_axis',(1.23793611074961E-16,0.,-1.));
#255=DIRECTION('ref_axis',(-1.,0.,-2.2472894412575E-16));
#256=DIRECTION('center_axis',(1.23793611074961E-16,0.,-1.));
#257=DIRECTION('ref_axis',(1.,0.,1.23793611074961E-16));
#258=DIRECTION('',(-1.23793611074961E-16,0.,1.));
#259=DIRECTION('center_axis',(1.23793611074961E-16,0.,-1.));
#260=DIRECTION('ref_axis',(-1.,0.,0.));
#261=DIRECTION('center_axis',(1.23793611074961E-16,0.,-1.));
#262=DIRECTION('ref_axis',(1.,0.,1.23793611074961E-16));
#263=DIRECTION('center_axis',(-1.22464679914735E-16,-1.,-1.51603449557843E-32));
#264=DIRECTION('ref_axis',(1.,-1.22464679914735E-16,0.));
#265=DIRECTION('center_axis',(1.23793611074961E-16,0.,-1.));
#266=DIRECTION('ref_axis',(-1.,0.,-2.2472894412575E-16));
#267=DIRECTION('center_axis',(1.23793611074961E-16,0.,-1.));
#268=DIRECTION('ref_axis',(1.,0.,1.23793611074961E-16));
#269=DIRECTION('',(-0.426802585005452,5.22682419594743E-17,0.904344819984426));
#270=DIRECTION('center_axis',(1.23793611074961E-16,0.,-1.));
#271=DIRECTION('ref_axis',(-1.,0.,-2.2472894412575E-16));
#272=DIRECTION('center_axis',(1.23793611074961E-16,0.,-1.));
#273=DIRECTION('ref_axis',(1.,0.,1.23793611074961E-16));
#274=DIRECTION('',(-0.984807753012208,1.2060416625019E-16,0.173648177666928));
#275=DIRECTION('',(-0.984807753012208,1.2060416625019E-16,0.173648177666928));
#276=DIRECTION('center_axis',(1.23793611074961E-16,0.,-1.));
#277=DIRECTION('ref_axis',(-1.,0.,0.));
#278=DIRECTION('center_axis',(1.23793611074961E-16,0.,-1.));
#279=DIRECTION('ref_axis',(1.,0.,1.23793611074961E-16));
#280=DIRECTION('center_axis',(-1.22464679914735E-16,-1.,-1.51603449557843E-32));
#281=DIRECTION('ref_axis',(1.,-1.22464679914735E-16,2.16628873362792E-16));
#282=DIRECTION('center_axis',(1.23793611074961E-16,0.,-1.));
#283=DIRECTION('ref_axis',(-1.,0.,-2.2472894412575E-16));
#284=DIRECTION('center_axis',(1.23793611074961E-16,0.,-1.));
#285=DIRECTION('ref_axis',(1.,0.,1.23793611074961E-16));
#286=DIRECTION('',(-1.23793611074961E-16,0.,1.));
#287=DIRECTION('center_axis',(1.23793611074961E-16,0.,-1.));
#288=DIRECTION('ref_axis',(-1.,0.,-1.73303098690234E-16));
#289=DIRECTION('center_axis',(1.23793611074961E-16,0.,-1.));
#290=DIRECTION('ref_axis',(1.,0.,1.23793611074961E-16));
#291=DIRECTION('center_axis',(-1.22464679914735E-16,-1.,-1.51603449557843E-32));
#292=DIRECTION('ref_axis',(1.,-1.22464679914735E-16,2.16628873362792E-16));
#293=DIRECTION('center_axis',(1.23793611074961E-16,0.,-1.));
#294=DIRECTION('ref_axis',(-1.,0.,-2.2472894412575E-16));
#295=DIRECTION('center_axis',(1.23793611074961E-16,0.,-1.));
#296=DIRECTION('ref_axis',(1.,0.,1.23793611074961E-16));
#297=DIRECTION('',(-1.23793611074961E-16,0.,1.));
#298=DIRECTION('center_axis',(1.23793611074961E-16,0.,-1.));
#299=DIRECTION('ref_axis',(-1.,0.,-1.29977329712213E-16));
#300=DIRECTION('center_axis',(-1.22464679914735E-16,-1.,-1.51603449557843E-32));
#301=DIRECTION('ref_axis',(1.,-1.22464679914735E-16,1.218537466052E-16));
#302=CARTESIAN_POINT('',(0.,0.,0.));
#303=CARTESIAN_POINT('Origin',(9.99999999999999,-0.0132295715847786,85.0000000000001));
#304=CARTESIAN_POINT('',(9.84539099813732,1.22717199909426,41.5415655372157));
#305=CARTESIAN_POINT('',(11.2499299889616,2.1358341489342E-8,41.3073409307748));
#306=CARTESIAN_POINT('Ctrl Pts',(9.84539099813731,1.22717199909426,41.5415655372157));
#307=CARTESIAN_POINT('Ctrl Pts',(10.0136384247878,1.24814308403585,41.5116694117849));
#308=CARTESIAN_POINT('Ctrl Pts',(10.1968821252376,1.23416153507691,41.4799446991952));
#309=CARTESIAN_POINT('Ctrl Pts',(10.5400728615758,1.12829065275995,41.4219328971389));
#310=CARTESIAN_POINT('Ctrl Pts',(10.7000084446161,1.03638769386184,41.3956029297672));
#311=CARTESIAN_POINT('Ctrl Pts',(10.9549398005782,0.810959066227793,41.3541908206315));
#312=CARTESIAN_POINT('Ctrl Pts',(11.0657796922573,0.664186932295526,41.3365217287666));
#313=CARTESIAN_POINT('Ctrl Pts',(11.2112840732126,0.341346074359821,41.313445738992));
#314=CARTESIAN_POINT('Ctrl Pts',(11.2481703474572,0.166250712372472,41.3076512029927));
#315=CARTESIAN_POINT('Ctrl Pts',(11.2499299891876,2.13609422858307E-8,41.3073409307349));
#316=CARTESIAN_POINT('',(8.75007001095707,1.75145767873982E-8,41.7481336928902));
#317=CARTESIAN_POINT('Ctrl Pts',(8.75007001077172,1.75167021512768E-8,41.7481336929229));
#318=CARTESIAN_POINT('Ctrl Pts',(8.75155631425043,0.140425791657632,41.7478716174685));
#319=CARTESIAN_POINT('Ctrl Pts',(8.77820882721101,0.289936150843733,41.7425152509254));
#320=CARTESIAN_POINT('Ctrl Pts',(8.88510079109014,0.572365005725738,41.7212718384902));
#321=CARTESIAN_POINT('Ctrl Pts',(8.96685931894262,0.704723002681815,41.7051271344907));
#322=CARTESIAN_POINT('Ctrl Pts',(9.15682410983409,0.920920407590552,41.6683628789652));
#323=CARTESIAN_POINT('Ctrl Pts',(9.27938725634096,1.01973498020532,41.6449802475737));
#324=CARTESIAN_POINT('Ctrl Pts',(9.5521488604581,1.16393984397982,41.5942762724498));
#325=CARTESIAN_POINT('Ctrl Pts',(9.70234618587559,1.20934227671386,41.5669833741166));
#326=CARTESIAN_POINT('Ctrl Pts',(9.84539099813731,1.22717199909426,41.5415655372157));
#327=CARTESIAN_POINT('',(11.25,-0.0132295715838065,41.3073272143392));
#328=CARTESIAN_POINT('Ctrl Pts',(11.25,-0.0132295715828344,41.3073272143391));
#329=CARTESIAN_POINT('Ctrl Pts',(11.25,-0.0137809087447587,41.3073271000174));
#330=CARTESIAN_POINT('Ctrl Pts',(11.2499996352326,-0.0143321407195301,41.3073270428892));
#331=CARTESIAN_POINT('Ctrl Pts',(11.249773141837,-0.185534506626698,41.3073270428892));
#332=CARTESIAN_POINT('Ctrl Pts',(11.2124967737074,-0.36626079422816,41.3131059461587));
#333=CARTESIAN_POINT('Ctrl Pts',(11.0639835786862,-0.693463661030243,41.3365217287666));
#334=CARTESIAN_POINT('Ctrl Pts',(10.952755729183,-0.839942008854644,41.3541908206315));
#335=CARTESIAN_POINT('Ctrl Pts',(10.6972288017996,-1.06469532204864,41.3956029297672));
#336=CARTESIAN_POINT('Ctrl Pts',(10.5370506116727,-1.15617478413901,41.4219328971389));
#337=CARTESIAN_POINT('Ctrl Pts',(10.1935809518551,-1.26113724416942,41.4799446991952));
#338=CARTESIAN_POINT('Ctrl Pts',(10.0103008989203,-1.27463389790508,41.5116694117849));
#339=CARTESIAN_POINT('Ctrl Pts',(9.69911241309519,-1.23500957525228,41.5669833741166));
#340=CARTESIAN_POINT('Ctrl Pts',(9.54903574416874,-1.18920989288792,41.5942762724498));
#341=CARTESIAN_POINT('Ctrl Pts',(9.27665664787902,-1.04428383132144,41.6449802475737));
#342=CARTESIAN_POINT('Ctrl Pts',(9.15435538483008,-0.945145313583192,41.6683628789652));
#343=CARTESIAN_POINT('Ctrl Pts',(8.96496329770388,-0.728446035777064,41.7051271344907));
#344=CARTESIAN_POINT('Ctrl Pts',(8.88355526334718,-0.595872176449491,41.7212718384902));
#345=CARTESIAN_POINT('Ctrl Pts',(8.77596981248956,-0.309323064398445,41.7428036769614));
#346=CARTESIAN_POINT('Ctrl Pts',(8.74981090356679,-0.155337384902872,41.7481444946604));
#347=CARTESIAN_POINT('Ctrl Pts',(8.75000618920663,-0.00772441150505996,
41.7481444946604));
#348=CARTESIAN_POINT('Ctrl Pts',(8.75002909558213,-0.00386564468122888,
41.7481409073761));
#349=CARTESIAN_POINT('Ctrl Pts',(8.75007001077172,1.75167022302869E-8,41.7481336929229));
#350=CARTESIAN_POINT('',(11.25,-0.0132295715847784,35.0000000000001));
#351=CARTESIAN_POINT('',(11.25,-0.0132295715847787,85.0000000000001));
#352=CARTESIAN_POINT('Origin',(10.,-0.0132295715847786,35.0000000000001));
#353=CARTESIAN_POINT('Ctrl Pts',(11.2499299891876,2.13609425540371E-8,41.3073409307349));
#354=CARTESIAN_POINT('Ctrl Pts',(11.2499767322336,-0.00441625473032219,
41.3073326886762));
#355=CARTESIAN_POINT('Ctrl Pts',(11.25,-0.00882627617306871,41.3073281273786));
#356=CARTESIAN_POINT('Ctrl Pts',(11.25,-0.0132295715828344,41.3073272143391));
#357=CARTESIAN_POINT('Origin',(10.,-0.0132295715847786,35.0000000000001));
#358=CARTESIAN_POINT('Origin',(0.,0.,0.));
#359=CARTESIAN_POINT('',(18.5,-2.26559657842261E-15,6.69620602556917E-15));
#360=CARTESIAN_POINT('Origin',(6.93889390390717E-17,0.,4.5102810375397E-15));
#361=CARTESIAN_POINT('Origin',(-2.75000000000001,0.,85.0000000000001));
#362=CARTESIAN_POINT('',(2.74999999999983,-3.36777869765503E-16,85.0000000000001));
#363=CARTESIAN_POINT('Origin',(-1.04530680023326E-14,0.,85.0000000000001));
#364=CARTESIAN_POINT('Origin',(-7.9771957808334E-15,0.,65.));
#365=CARTESIAN_POINT('',(2.74999999999983,-3.36777869765503E-16,45.));
#366=CARTESIAN_POINT('Origin',(-5.50132355933417E-15,0.,45.));
#367=CARTESIAN_POINT('',(2.74999999999983,-3.36777869765503E-16,65.));
#368=CARTESIAN_POINT('Origin',(-5.25374025690291E-15,0.,43.0000316633356));
#369=CARTESIAN_POINT('',(4.40458848924963,-5.39406519492084E-16,44.1068147618223));
#370=CARTESIAN_POINT('Origin',(-5.3907529333413E-15,0.,44.1068147618223));
#371=CARTESIAN_POINT('Origin',(2.73874600782944,-3.35399653216593E-16,43.0000316633356));
#372=CARTESIAN_POINT('Origin',(-5.28323796187725E-15,0.,43.2383129826881));
#373=CARTESIAN_POINT('',(5.224361647065,-6.39799776866636E-16,42.3698112035539));
#374=CARTESIAN_POINT('Origin',(-5.1757229904132E-15,0.,42.3698112035539));
#375=CARTESIAN_POINT('',(4.81447506815731,-5.8960314817936E-16,43.2383129826881));
#376=CARTESIAN_POINT('Origin',(-5.02704122447401E-15,0.,41.1687656516218));
#377=CARTESIAN_POINT('',(18.8472972534754,-2.30812822540473E-15,39.9677200996897));
#378=CARTESIAN_POINT('Origin',(-4.87835945853482E-15,0.,39.9677200996897));
#379=CARTESIAN_POINT('',(12.0358294502702,-1.47396400113568E-15,41.1687656516218));
#380=CARTESIAN_POINT('',(12.0358294502702,-1.47396400113568E-15,41.1687656516218));
#381=CARTESIAN_POINT('Origin',(-4.63453364261482E-15,0.,37.9981045936653));
#382=CARTESIAN_POINT('',(18.5,-2.2655965784226E-15,35.9981045936655));
#383=CARTESIAN_POINT('Origin',(-4.38694642046492E-15,0.,35.9981045936655));
#384=CARTESIAN_POINT('Origin',(18.5000008981415,-2.26559668841321E-15,37.9981045936653));
#385=CARTESIAN_POINT('Origin',(-4.139359198315E-15,0.,33.9981045936655));
#386=CARTESIAN_POINT('',(18.5,-2.2655965784226E-15,31.9981045936655));
#387=CARTESIAN_POINT('Origin',(-3.89177197616508E-15,0.,31.9981045936655));
#388=CARTESIAN_POINT('',(18.5,-2.2655965784226E-15,33.9981045936655));
#389=CARTESIAN_POINT('Origin',(-3.64418475401518E-15,0.,29.9981045936657));
#390=CARTESIAN_POINT('',(20.5,-2.51052593825208E-15,30.));
#391=CARTESIAN_POINT('Origin',(-3.64441939320976E-15,0.,30.));
#392=CARTESIAN_POINT('Origin',(18.5000008981415,-2.26559668841321E-15,29.9981045936657));
#393=CARTESIAN_POINT('Origin',(-1.91130883816031E-15,0.,16.));
#394=CARTESIAN_POINT('',(20.5,-2.51052593825208E-15,2.00000000000001));
#395=CARTESIAN_POINT('Origin',(-1.78198283110851E-16,0.,2.00000000000001));
#396=CARTESIAN_POINT('',(20.5,-2.51052593825208E-15,16.));
#397=CARTESIAN_POINT('Origin',(-1.78198283110851E-16,0.,2.00000000000001));
#398=CARTESIAN_POINT('Origin',(18.5,-2.26559657842261E-15,2.00000000000001));
#399=UNCERTAINTY_MEASURE_WITH_UNIT(LENGTH_MEASURE(0.01),#403,
'DISTANCE_ACCURACY_VALUE',
'Maximum model space distance between geometric entities at asserted c
onnectivities');
#400=UNCERTAINTY_MEASURE_WITH_UNIT(LENGTH_MEASURE(0.01),#403,
'DISTANCE_ACCURACY_VALUE',
'Maximum model space distance between geometric entities at asserted c
onnectivities');
#401=(
GEOMETRIC_REPRESENTATION_CONTEXT(3)
GLOBAL_UNCERTAINTY_ASSIGNED_CONTEXT((#399))
GLOBAL_UNIT_ASSIGNED_CONTEXT((#403,#405,#406))
REPRESENTATION_CONTEXT('','3D')
);
#402=(
GEOMETRIC_REPRESENTATION_CONTEXT(3)
GLOBAL_UNCERTAINTY_ASSIGNED_CONTEXT((#400))
GLOBAL_UNIT_ASSIGNED_CONTEXT((#403,#405,#406))
REPRESENTATION_CONTEXT('','3D')
);
#403=(
LENGTH_UNIT()
NAMED_UNIT(*)
SI_UNIT(.MILLI.,.METRE.)
);
#404=(
LENGTH_UNIT()
NAMED_UNIT(*)
SI_UNIT($,.METRE.)
);
#405=(
NAMED_UNIT(*)
PLANE_ANGLE_UNIT()
SI_UNIT($,.RADIAN.)
);
#406=(
NAMED_UNIT(*)
SI_UNIT($,.STERADIAN.)
SOLID_ANGLE_UNIT()
);
#407=SHAPE_DEFINITION_REPRESENTATION(#408,#409);
#408=PRODUCT_DEFINITION_SHAPE('',$,#411);
#409=SHAPE_REPRESENTATION('',(#208),#401);
#410=PRODUCT_DEFINITION_CONTEXT('part definition',#415,'design');
#411=PRODUCT_DEFINITION('Untitled','Untitled v1',#412,#410);
#412=PRODUCT_DEFINITION_FORMATION('',$,#417);
#413=PRODUCT_RELATED_PRODUCT_CATEGORY('Untitled v1','Untitled v1',(#417));
#414=APPLICATION_PROTOCOL_DEFINITION('international standard',
'automotive_design',2009,#415);
#415=APPLICATION_CONTEXT(
'Core Data for Automotive Mechanical Design Process');
#416=PRODUCT_CONTEXT('part definition',#415,'mechanical');
#417=PRODUCT('Untitled','Untitled v1',$,(#416));
#418=PRESENTATION_STYLE_ASSIGNMENT((#421));
#419=PRESENTATION_STYLE_ASSIGNMENT((#422));
#420=PRESENTATION_STYLE_ASSIGNMENT((#423));
#421=SURFACE_STYLE_USAGE(.BOTH.,#424);
#422=SURFACE_STYLE_USAGE(.BOTH.,#425);
#423=SURFACE_STYLE_USAGE(.BOTH.,#426);
#424=SURFACE_SIDE_STYLE('',(#427));
#425=SURFACE_SIDE_STYLE('',(#428));
#426=SURFACE_SIDE_STYLE('',(#429));
#427=SURFACE_STYLE_FILL_AREA(#430);
#428=SURFACE_STYLE_FILL_AREA(#431);
#429=SURFACE_STYLE_FILL_AREA(#432);
#430=FILL_AREA_STYLE('Plastic - Translucent Matte (Red)',(#433));
#431=FILL_AREA_STYLE('Polymide (Kapton)',(#434));
#432=FILL_AREA_STYLE(
'PA 11 - Nylon- HP 11-30 (with EOS P 396 3D Printer)',(#435));
#433=FILL_AREA_STYLE_COLOUR('Plastic - Translucent Matte (Red)',#436);
#434=FILL_AREA_STYLE_COLOUR('Polymide (Kapton)',#437);
#435=FILL_AREA_STYLE_COLOUR(
'PA 11 - Nylon- HP 11-30 (with EOS P 396 3D Printer)',#438);
#436=COLOUR_RGB('Plastic - Translucent Matte (Red)',0.768627450980392,0.207843137254902,
0.152941176470588);
#437=COLOUR_RGB('Polymide (Kapton)',0.784313725490196,0.556862745098039,
0.0274509803921569);
#438=COLOUR_RGB('PA 11 - Nylon- HP 11-30 (with EOS P 396 3D Printer)',0.247058823529412,
0.247058823529412,0.247058823529412);
ENDSEC;
END-ISO-10303-21;
