ISO-10303-21;
HEADER;
/* Generated by software containing ST-Developer
 * from STEP Tools, Inc. (www.steptools.com) 
 */

FILE_DESCRIPTION(
/* description */ (''),
/* implementation_level */ '2;1');

FILE_NAME(
/* name */ 'C:/Users/Strannik/Desktop/\X2\04350443044C0437\X0\/1231231
23 v2.step',
/* time_stamp */ '2019-03-04T15:29:38+04:00',
/* author */ ('s.dmitriev8LGZ2'),
/* organization */ (''),
/* preprocessor_version */ 'ST-DEVELOPER v17.2',
/* originating_system */ 'Autodesk Translation Framework v7.6.0.251',
/* authorisation */ '');

FILE_SCHEMA (('AUTOMOTIVE_DESIGN { 1 0 10303 214 3 1 1 }'));
ENDSEC;

DATA;
#10=MECHANICAL_DESIGN_GEOMETRIC_PRESENTATION_REPRESENTATION('',(#228,#229,
#230,#231,#232,#233,#234,#235,#236,#237,#238,#239,#240,#241),#483);
#11=SHAPE_REPRESENTATION_RELATIONSHIP('SRR','None',#490,#12);
#12=ADVANCED_BREP_SHAPE_REPRESENTATION('',(#13),#482);
#13=MANIFOLD_SOLID_BREP('Body1',#256);
#14=CONICAL_SURFACE('',#301,8.26415360703421,0.436332312999068);
#15=FACE_BOUND('',#50,.T.);
#16=FACE_BOUND('',#51,.T.);
#17=FACE_BOUND('',#55,.T.);
#18=TOROIDAL_SURFACE('',#279,27.9999999999942,3.99999999999993);
#19=TOROIDAL_SURFACE('',#286,28.9999999999942,3.);
#20=TOROIDAL_SURFACE('',#293,28.9999999999939,2.99999999999998);
#21=TOROIDAL_SURFACE('',#304,3.72585947838505,1.999999999979);
#22=PLANE('',#275);
#23=PLANE('',#276);
#24=PLANE('',#297);
#25=PLANE('',#308);
#26=PLANE('',#312);
#27=FACE_OUTER_BOUND('',#41,.T.);
#28=FACE_OUTER_BOUND('',#42,.T.);
#29=FACE_OUTER_BOUND('',#43,.T.);
#30=FACE_OUTER_BOUND('',#44,.T.);
#31=FACE_OUTER_BOUND('',#45,.T.);
#32=FACE_OUTER_BOUND('',#46,.T.);
#33=FACE_OUTER_BOUND('',#47,.T.);
#34=FACE_OUTER_BOUND('',#48,.T.);
#35=FACE_OUTER_BOUND('',#49,.T.);
#36=FACE_OUTER_BOUND('',#52,.T.);
#37=FACE_OUTER_BOUND('',#53,.T.);
#38=FACE_OUTER_BOUND('',#54,.T.);
#39=FACE_OUTER_BOUND('',#56,.T.);
#40=FACE_OUTER_BOUND('',#57,.T.);
#41=EDGE_LOOP('',(#156,#157,#158,#159,#160,#161));
#42=EDGE_LOOP('',(#162,#163));
#43=EDGE_LOOP('',(#164,#165));
#44=EDGE_LOOP('',(#166,#167,#168,#169,#170,#171));
#45=EDGE_LOOP('',(#172,#173,#174,#175,#176,#177));
#46=EDGE_LOOP('',(#178,#179,#180,#181,#182,#183));
#47=EDGE_LOOP('',(#184,#185,#186,#187,#188,#189));
#48=EDGE_LOOP('',(#190,#191,#192,#193,#194,#195));
#49=EDGE_LOOP('',(#196,#197));
#50=EDGE_LOOP('',(#198,#199));
#51=EDGE_LOOP('',(#200));
#52=EDGE_LOOP('',(#201,#202,#203,#204,#205));
#53=EDGE_LOOP('',(#206,#207,#208,#209,#210,#211));
#54=EDGE_LOOP('',(#212,#213));
#55=EDGE_LOOP('',(#214,#215));
#56=EDGE_LOOP('',(#216,#217,#218,#219,#220,#221));
#57=EDGE_LOOP('',(#222,#223));
#58=LINE('',#413,#63);
#59=LINE('',#434,#64);
#60=LINE('',#446,#65);
#61=LINE('',#462,#66);
#62=LINE('',#478,#67);
#63=VECTOR('',#321,2.50000000000001);
#64=VECTOR('',#348,31.9999999999942);
#65=VECTOR('',#363,28.9999999999939);
#66=VECTOR('',#382,8.26415360703421);
#67=VECTOR('',#403,2.80000000000002);
#68=CIRCLE('',#271,2.50000000000001);
#69=CIRCLE('',#272,2.50000000000001);
#70=CIRCLE('',#273,2.50000000000001);
#71=CIRCLE('',#274,2.50000000000001);
#72=CIRCLE('',#277,27.9999999999945);
#73=CIRCLE('',#278,27.9999999999945);
#74=CIRCLE('',#280,31.9999999999942);
#75=CIRCLE('',#281,31.9999999999942);
#76=CIRCLE('',#282,3.99999999999993);
#77=CIRCLE('',#284,31.9999999999942);
#78=CIRCLE('',#285,31.9999999999942);
#79=CIRCLE('',#287,28.9999999999939);
#80=CIRCLE('',#288,28.9999999999939);
#81=CIRCLE('',#289,3.);
#82=CIRCLE('',#291,28.9999999999939);
#83=CIRCLE('',#292,28.9999999999939);
#84=CIRCLE('',#294,28.9999999999939);
#85=CIRCLE('',#295,28.9999999999939);
#86=CIRCLE('',#296,2.99999999999998);
#87=CIRCLE('',#298,2.80000000000002);
#88=CIRCLE('',#299,2.80000000000002);
#89=CIRCLE('',#300,8.26415360703421);
#90=CIRCLE('',#302,5.53847505242265);
#91=CIRCLE('',#303,5.53847505242265);
#92=CIRCLE('',#305,3.725859478385);
#93=CIRCLE('',#306,3.725859478385);
#94=CIRCLE('',#307,1.999999999979);
#95=CIRCLE('',#310,2.80000000000002);
#96=CIRCLE('',#311,2.80000000000002);
#97=VERTEX_POINT('',#408);
#98=VERTEX_POINT('',#409);
#99=VERTEX_POINT('',#412);
#100=VERTEX_POINT('',#414);
#101=VERTEX_POINT('',#419);
#102=VERTEX_POINT('',#420);
#103=VERTEX_POINT('',#424);
#104=VERTEX_POINT('',#425);
#105=VERTEX_POINT('',#430);
#106=VERTEX_POINT('',#431);
#107=VERTEX_POINT('',#436);
#108=VERTEX_POINT('',#437);
#109=VERTEX_POINT('',#442);
#110=VERTEX_POINT('',#443);
#111=VERTEX_POINT('',#448);
#112=VERTEX_POINT('',#449);
#113=VERTEX_POINT('',#454);
#114=VERTEX_POINT('',#455);
#115=VERTEX_POINT('',#458);
#116=VERTEX_POINT('',#461);
#117=VERTEX_POINT('',#463);
#118=VERTEX_POINT('',#467);
#119=VERTEX_POINT('',#468);
#120=VERTEX_POINT('',#474);
#121=VERTEX_POINT('',#475);
#122=EDGE_CURVE('',#97,#98,#68,.T.);
#123=EDGE_CURVE('',#98,#97,#69,.T.);
#124=EDGE_CURVE('',#98,#99,#58,.T.);
#125=EDGE_CURVE('',#99,#100,#70,.T.);
#126=EDGE_CURVE('',#100,#99,#71,.T.);
#127=EDGE_CURVE('',#101,#102,#72,.T.);
#128=EDGE_CURVE('',#102,#101,#73,.T.);
#129=EDGE_CURVE('',#103,#104,#74,.T.);
#130=EDGE_CURVE('',#104,#103,#75,.T.);
#131=EDGE_CURVE('',#104,#102,#76,.T.);
#132=EDGE_CURVE('',#105,#106,#77,.T.);
#133=EDGE_CURVE('',#106,#105,#78,.T.);
#134=EDGE_CURVE('',#106,#104,#59,.T.);
#135=EDGE_CURVE('',#107,#108,#79,.T.);
#136=EDGE_CURVE('',#108,#107,#80,.T.);
#137=EDGE_CURVE('',#108,#106,#81,.T.);
#138=EDGE_CURVE('',#109,#110,#82,.T.);
#139=EDGE_CURVE('',#110,#109,#83,.T.);
#140=EDGE_CURVE('',#110,#108,#60,.T.);
#141=EDGE_CURVE('',#111,#112,#84,.T.);
#142=EDGE_CURVE('',#112,#111,#85,.T.);
#143=EDGE_CURVE('',#112,#110,#86,.T.);
#144=EDGE_CURVE('',#113,#114,#87,.T.);
#145=EDGE_CURVE('',#114,#113,#88,.T.);
#146=EDGE_CURVE('',#115,#115,#89,.T.);
#147=EDGE_CURVE('',#115,#116,#61,.T.);
#148=EDGE_CURVE('',#117,#116,#90,.T.);
#149=EDGE_CURVE('',#116,#117,#91,.T.);
#150=EDGE_CURVE('',#118,#119,#92,.T.);
#151=EDGE_CURVE('',#119,#118,#93,.T.);
#152=EDGE_CURVE('',#119,#117,#94,.T.);
#153=EDGE_CURVE('',#120,#121,#95,.T.);
#154=EDGE_CURVE('',#121,#120,#96,.T.);
#155=EDGE_CURVE('',#121,#114,#62,.T.);
#156=ORIENTED_EDGE('',*,*,#122,.F.);
#157=ORIENTED_EDGE('',*,*,#123,.F.);
#158=ORIENTED_EDGE('',*,*,#124,.T.);
#159=ORIENTED_EDGE('',*,*,#125,.T.);
#160=ORIENTED_EDGE('',*,*,#126,.T.);
#161=ORIENTED_EDGE('',*,*,#124,.F.);
#162=ORIENTED_EDGE('',*,*,#122,.T.);
#163=ORIENTED_EDGE('',*,*,#123,.T.);
#164=ORIENTED_EDGE('',*,*,#127,.F.);
#165=ORIENTED_EDGE('',*,*,#128,.F.);
#166=ORIENTED_EDGE('',*,*,#129,.F.);
#167=ORIENTED_EDGE('',*,*,#130,.F.);
#168=ORIENTED_EDGE('',*,*,#131,.T.);
#169=ORIENTED_EDGE('',*,*,#128,.T.);
#170=ORIENTED_EDGE('',*,*,#127,.T.);
#171=ORIENTED_EDGE('',*,*,#131,.F.);
#172=ORIENTED_EDGE('',*,*,#132,.F.);
#173=ORIENTED_EDGE('',*,*,#133,.F.);
#174=ORIENTED_EDGE('',*,*,#134,.T.);
#175=ORIENTED_EDGE('',*,*,#130,.T.);
#176=ORIENTED_EDGE('',*,*,#129,.T.);
#177=ORIENTED_EDGE('',*,*,#134,.F.);
#178=ORIENTED_EDGE('',*,*,#135,.F.);
#179=ORIENTED_EDGE('',*,*,#136,.F.);
#180=ORIENTED_EDGE('',*,*,#137,.T.);
#181=ORIENTED_EDGE('',*,*,#133,.T.);
#182=ORIENTED_EDGE('',*,*,#132,.T.);
#183=ORIENTED_EDGE('',*,*,#137,.F.);
#184=ORIENTED_EDGE('',*,*,#138,.F.);
#185=ORIENTED_EDGE('',*,*,#139,.F.);
#186=ORIENTED_EDGE('',*,*,#140,.T.);
#187=ORIENTED_EDGE('',*,*,#136,.T.);
#188=ORIENTED_EDGE('',*,*,#135,.T.);
#189=ORIENTED_EDGE('',*,*,#140,.F.);
#190=ORIENTED_EDGE('',*,*,#141,.F.);
#191=ORIENTED_EDGE('',*,*,#142,.F.);
#192=ORIENTED_EDGE('',*,*,#143,.T.);
#193=ORIENTED_EDGE('',*,*,#139,.T.);
#194=ORIENTED_EDGE('',*,*,#138,.T.);
#195=ORIENTED_EDGE('',*,*,#143,.F.);
#196=ORIENTED_EDGE('',*,*,#141,.T.);
#197=ORIENTED_EDGE('',*,*,#142,.T.);
#198=ORIENTED_EDGE('',*,*,#144,.F.);
#199=ORIENTED_EDGE('',*,*,#145,.F.);
#200=ORIENTED_EDGE('',*,*,#146,.F.);
#201=ORIENTED_EDGE('',*,*,#146,.T.);
#202=ORIENTED_EDGE('',*,*,#147,.T.);
#203=ORIENTED_EDGE('',*,*,#148,.F.);
#204=ORIENTED_EDGE('',*,*,#149,.F.);
#205=ORIENTED_EDGE('',*,*,#147,.F.);
#206=ORIENTED_EDGE('',*,*,#150,.F.);
#207=ORIENTED_EDGE('',*,*,#151,.F.);
#208=ORIENTED_EDGE('',*,*,#152,.T.);
#209=ORIENTED_EDGE('',*,*,#148,.T.);
#210=ORIENTED_EDGE('',*,*,#149,.T.);
#211=ORIENTED_EDGE('',*,*,#152,.F.);
#212=ORIENTED_EDGE('',*,*,#150,.T.);
#213=ORIENTED_EDGE('',*,*,#151,.T.);
#214=ORIENTED_EDGE('',*,*,#126,.F.);
#215=ORIENTED_EDGE('',*,*,#125,.F.);
#216=ORIENTED_EDGE('',*,*,#153,.F.);
#217=ORIENTED_EDGE('',*,*,#154,.F.);
#218=ORIENTED_EDGE('',*,*,#155,.T.);
#219=ORIENTED_EDGE('',*,*,#145,.T.);
#220=ORIENTED_EDGE('',*,*,#144,.T.);
#221=ORIENTED_EDGE('',*,*,#155,.F.);
#222=ORIENTED_EDGE('',*,*,#153,.T.);
#223=ORIENTED_EDGE('',*,*,#154,.T.);
#224=CYLINDRICAL_SURFACE('',#270,2.50000000000001);
#225=CYLINDRICAL_SURFACE('',#283,31.9999999999942);
#226=CYLINDRICAL_SURFACE('',#290,28.9999999999939);
#227=CYLINDRICAL_SURFACE('',#309,2.80000000000002);
#228=STYLED_ITEM('',(#500),#242);
#229=STYLED_ITEM('',(#500),#243);
#230=STYLED_ITEM('',(#501),#244);
#231=STYLED_ITEM('',(#501),#245);
#232=STYLED_ITEM('',(#501),#246);
#233=STYLED_ITEM('',(#501),#247);
#234=STYLED_ITEM('',(#501),#248);
#235=STYLED_ITEM('',(#501),#249);
#236=STYLED_ITEM('',(#501),#250);
#237=STYLED_ITEM('',(#501),#251);
#238=STYLED_ITEM('',(#501),#252);
#239=STYLED_ITEM('',(#501),#253);
#240=STYLED_ITEM('',(#501),#254);
#241=STYLED_ITEM('',(#499),#13);
#242=ADVANCED_FACE('',(#27),#224,.T.);
#243=ADVANCED_FACE('',(#28),#22,.F.);
#244=ADVANCED_FACE('',(#29),#23,.F.);
#245=ADVANCED_FACE('',(#30),#18,.T.);
#246=ADVANCED_FACE('',(#31),#225,.T.);
#247=ADVANCED_FACE('',(#32),#19,.T.);
#248=ADVANCED_FACE('',(#33),#226,.T.);
#249=ADVANCED_FACE('',(#34),#20,.T.);
#250=ADVANCED_FACE('',(#35,#15,#16),#24,.F.);
#251=ADVANCED_FACE('',(#36),#14,.T.);
#252=ADVANCED_FACE('',(#37),#21,.T.);
#253=ADVANCED_FACE('',(#38,#17),#25,.F.);
#254=ADVANCED_FACE('',(#39),#227,.F.);
#255=ADVANCED_FACE('',(#40),#26,.T.);
#256=CLOSED_SHELL('',(#242,#243,#244,#245,#246,#247,#248,#249,#250,#251,
#252,#253,#254,#255));
#257=DERIVED_UNIT_ELEMENT(#259,1.);
#258=DERIVED_UNIT_ELEMENT(#485,3.);
#259=(
MASS_UNIT()
NAMED_UNIT(*)
SI_UNIT(.KILO.,.GRAM.)
);
#260=DERIVED_UNIT((#257,#258));
#261=MEASURE_REPRESENTATION_ITEM('density measure',
POSITIVE_RATIO_MEASURE(7850.),#260);
#262=PROPERTY_DEFINITION_REPRESENTATION(#267,#264);
#263=PROPERTY_DEFINITION_REPRESENTATION(#268,#265);
#264=REPRESENTATION('material name',(#266),#482);
#265=REPRESENTATION('density',(#261),#482);
#266=DESCRIPTIVE_REPRESENTATION_ITEM('Steel','Steel');
#267=PROPERTY_DEFINITION('material property','material name',#492);
#268=PROPERTY_DEFINITION('material property','density of part',#492);
#269=AXIS2_PLACEMENT_3D('placement',#406,#313,#314);
#270=AXIS2_PLACEMENT_3D('',#407,#315,#316);
#271=AXIS2_PLACEMENT_3D('',#410,#317,#318);
#272=AXIS2_PLACEMENT_3D('',#411,#319,#320);
#273=AXIS2_PLACEMENT_3D('',#415,#322,#323);
#274=AXIS2_PLACEMENT_3D('',#416,#324,#325);
#275=AXIS2_PLACEMENT_3D('',#417,#326,#327);
#276=AXIS2_PLACEMENT_3D('',#418,#328,#329);
#277=AXIS2_PLACEMENT_3D('',#421,#330,#331);
#278=AXIS2_PLACEMENT_3D('',#422,#332,#333);
#279=AXIS2_PLACEMENT_3D('',#423,#334,#335);
#280=AXIS2_PLACEMENT_3D('',#426,#336,#337);
#281=AXIS2_PLACEMENT_3D('',#427,#338,#339);
#282=AXIS2_PLACEMENT_3D('',#428,#340,#341);
#283=AXIS2_PLACEMENT_3D('',#429,#342,#343);
#284=AXIS2_PLACEMENT_3D('',#432,#344,#345);
#285=AXIS2_PLACEMENT_3D('',#433,#346,#347);
#286=AXIS2_PLACEMENT_3D('',#435,#349,#350);
#287=AXIS2_PLACEMENT_3D('',#438,#351,#352);
#288=AXIS2_PLACEMENT_3D('',#439,#353,#354);
#289=AXIS2_PLACEMENT_3D('',#440,#355,#356);
#290=AXIS2_PLACEMENT_3D('',#441,#357,#358);
#291=AXIS2_PLACEMENT_3D('',#444,#359,#360);
#292=AXIS2_PLACEMENT_3D('',#445,#361,#362);
#293=AXIS2_PLACEMENT_3D('',#447,#364,#365);
#294=AXIS2_PLACEMENT_3D('',#450,#366,#367);
#295=AXIS2_PLACEMENT_3D('',#451,#368,#369);
#296=AXIS2_PLACEMENT_3D('',#452,#370,#371);
#297=AXIS2_PLACEMENT_3D('',#453,#372,#373);
#298=AXIS2_PLACEMENT_3D('',#456,#374,#375);
#299=AXIS2_PLACEMENT_3D('',#457,#376,#377);
#300=AXIS2_PLACEMENT_3D('',#459,#378,#379);
#301=AXIS2_PLACEMENT_3D('',#460,#380,#381);
#302=AXIS2_PLACEMENT_3D('',#464,#383,#384);
#303=AXIS2_PLACEMENT_3D('',#465,#385,#386);
#304=AXIS2_PLACEMENT_3D('',#466,#387,#388);
#305=AXIS2_PLACEMENT_3D('',#469,#389,#390);
#306=AXIS2_PLACEMENT_3D('',#470,#391,#392);
#307=AXIS2_PLACEMENT_3D('',#471,#393,#394);
#308=AXIS2_PLACEMENT_3D('',#472,#395,#396);
#309=AXIS2_PLACEMENT_3D('',#473,#397,#398);
#310=AXIS2_PLACEMENT_3D('',#476,#399,#400);
#311=AXIS2_PLACEMENT_3D('',#477,#401,#402);
#312=AXIS2_PLACEMENT_3D('',#479,#404,#405);
#313=DIRECTION('axis',(0.,0.,1.));
#314=DIRECTION('refdir',(1.,0.,0.));
#315=DIRECTION('center_axis',(-4.91291142532984E-25,-1.,0.));
#316=DIRECTION('ref_axis',(6.71723663322554E-17,-3.30011886020179E-41,-1.));
#317=DIRECTION('center_axis',(-4.91291142592781E-25,-1.,0.));
#318=DIRECTION('ref_axis',(6.71723663322554E-17,0.,-1.));
#319=DIRECTION('center_axis',(-4.91291142592781E-25,-1.,0.));
#320=DIRECTION('ref_axis',(6.71723663322554E-17,0.,-1.));
#321=DIRECTION('',(4.91291142532984E-25,1.,0.));
#322=DIRECTION('center_axis',(-4.91291142592781E-25,-1.,0.));
#323=DIRECTION('ref_axis',(6.71723663322554E-17,0.,-1.));
#324=DIRECTION('center_axis',(-4.91291142592781E-25,-1.,0.));
#325=DIRECTION('ref_axis',(6.71723663322554E-17,0.,-1.));
#326=DIRECTION('center_axis',(4.91291142592781E-25,1.,0.));
#327=DIRECTION('ref_axis',(0.,0.,1.));
#328=DIRECTION('center_axis',(-4.91291142592781E-25,-1.,0.));
#329=DIRECTION('ref_axis',(0.,0.,-1.));
#330=DIRECTION('center_axis',(-4.91291142592781E-25,-1.,0.));
#331=DIRECTION('ref_axis',(6.71723663322554E-17,0.,-1.));
#332=DIRECTION('center_axis',(-4.91291142592781E-25,-1.,0.));
#333=DIRECTION('ref_axis',(6.71723663322554E-17,0.,-1.));
#334=DIRECTION('center_axis',(-4.91291142592781E-25,-1.,0.));
#335=DIRECTION('ref_axis',(0.,0.,-1.));
#336=DIRECTION('center_axis',(-4.91291142592781E-25,-1.,0.));
#337=DIRECTION('ref_axis',(6.71723663322554E-17,0.,-1.));
#338=DIRECTION('center_axis',(-4.91291142592781E-25,-1.,0.));
#339=DIRECTION('ref_axis',(6.71723663322554E-17,0.,-1.));
#340=DIRECTION('center_axis',(-1.,4.91291142592781E-25,-1.22464679914735E-16));
#341=DIRECTION('ref_axis',(-1.22464679914735E-16,0.,1.));
#342=DIRECTION('center_axis',(-4.91291142592781E-25,-1.,0.));
#343=DIRECTION('ref_axis',(6.71723663322554E-17,0.,-1.));
#344=DIRECTION('center_axis',(-4.91291142592781E-25,-1.,0.));
#345=DIRECTION('ref_axis',(6.71723663322554E-17,0.,-1.));
#346=DIRECTION('center_axis',(-4.91291142592781E-25,-1.,0.));
#347=DIRECTION('ref_axis',(6.71723663322554E-17,0.,-1.));
#348=DIRECTION('',(4.91291142592781E-25,1.,0.));
#349=DIRECTION('center_axis',(-4.91291142592781E-25,-1.,0.));
#350=DIRECTION('ref_axis',(0.,0.,-1.));
#351=DIRECTION('center_axis',(-4.91291142592781E-25,-1.,0.));
#352=DIRECTION('ref_axis',(6.71723663322554E-17,0.,-1.));
#353=DIRECTION('center_axis',(-4.91291142592781E-25,-1.,0.));
#354=DIRECTION('ref_axis',(6.71723663322554E-17,0.,-1.));
#355=DIRECTION('center_axis',(-1.,4.91291142592781E-25,-1.22464679914735E-16));
#356=DIRECTION('ref_axis',(-1.22464679914735E-16,0.,1.));
#357=DIRECTION('center_axis',(-4.91291142592781E-25,-1.,0.));
#358=DIRECTION('ref_axis',(6.71723663322554E-17,0.,-1.));
#359=DIRECTION('center_axis',(-4.91291142592781E-25,-1.,0.));
#360=DIRECTION('ref_axis',(6.71723663322554E-17,0.,-1.));
#361=DIRECTION('center_axis',(-4.91291142592781E-25,-1.,0.));
#362=DIRECTION('ref_axis',(6.71723663322554E-17,0.,-1.));
#363=DIRECTION('',(4.91291142592782E-25,1.,0.));
#364=DIRECTION('center_axis',(-4.91291142592781E-25,-1.,0.));
#365=DIRECTION('ref_axis',(0.,0.,-1.));
#366=DIRECTION('center_axis',(-4.91291142592781E-25,-1.,0.));
#367=DIRECTION('ref_axis',(6.71723663322554E-17,0.,-1.));
#368=DIRECTION('center_axis',(-4.91291142592781E-25,-1.,0.));
#369=DIRECTION('ref_axis',(6.71723663322554E-17,0.,-1.));
#370=DIRECTION('center_axis',(-1.,4.91291142592781E-25,-1.22464679914735E-16));
#371=DIRECTION('ref_axis',(-1.22464679914735E-16,0.,1.));
#372=DIRECTION('center_axis',(4.91291142592781E-25,1.,0.));
#373=DIRECTION('ref_axis',(0.,0.,1.));
#374=DIRECTION('center_axis',(-4.91291142592781E-25,-1.,0.));
#375=DIRECTION('ref_axis',(6.71723663322554E-17,0.,-1.));
#376=DIRECTION('center_axis',(-4.91291142592781E-25,-1.,0.));
#377=DIRECTION('ref_axis',(6.71723663322554E-17,0.,-1.));
#378=DIRECTION('center_axis',(-4.91291142592781E-25,-1.,0.));
#379=DIRECTION('ref_axis',(6.71723663322554E-17,0.,-1.));
#380=DIRECTION('center_axis',(4.91291142592781E-25,1.,0.));
#381=DIRECTION('ref_axis',(-6.71723663322554E-17,0.,1.));
#382=DIRECTION('',(2.33675410086127E-17,-0.906307787036445,0.422618261741139));
#383=DIRECTION('center_axis',(-4.91291142592781E-25,-1.,0.));
#384=DIRECTION('ref_axis',(6.71723663322554E-17,0.,-1.));
#385=DIRECTION('center_axis',(-4.91291142592781E-25,-1.,0.));
#386=DIRECTION('ref_axis',(6.71723663322554E-17,0.,-1.));
#387=DIRECTION('center_axis',(-4.91291142592781E-25,-1.,0.));
#388=DIRECTION('ref_axis',(0.,0.,-1.));
#389=DIRECTION('center_axis',(-4.91291142592781E-25,-1.,0.));
#390=DIRECTION('ref_axis',(6.71723663322554E-17,0.,-1.));
#391=DIRECTION('center_axis',(-4.91291142592781E-25,-1.,0.));
#392=DIRECTION('ref_axis',(6.71723663322554E-17,0.,-1.));
#393=DIRECTION('center_axis',(-1.,4.91291142592781E-25,-1.22464679914735E-16));
#394=DIRECTION('ref_axis',(-1.22464679914735E-16,0.,1.));
#395=DIRECTION('center_axis',(4.91291142592781E-25,1.,0.));
#396=DIRECTION('ref_axis',(0.,0.,1.));
#397=DIRECTION('center_axis',(-4.91291142592781E-25,-1.,0.));
#398=DIRECTION('ref_axis',(6.71723663322554E-17,0.,-1.));
#399=DIRECTION('center_axis',(-4.91291142592781E-25,-1.,0.));
#400=DIRECTION('ref_axis',(6.71723663322554E-17,0.,-1.));
#401=DIRECTION('center_axis',(-4.91291142592781E-25,-1.,0.));
#402=DIRECTION('ref_axis',(6.71723663322554E-17,0.,-1.));
#403=DIRECTION('',(-4.91291142592781E-25,-1.,0.));
#404=DIRECTION('center_axis',(-4.91291142592781E-25,-1.,0.));
#405=DIRECTION('ref_axis',(0.,0.,-1.));
#406=CARTESIAN_POINT('',(0.,0.,0.));
#407=CARTESIAN_POINT('Origin',(0.,7.44954626288835,0.));
#408=CARTESIAN_POINT('',(1.67930891266082E-16,-42.5504537371116,-2.50000000000001));
#409=CARTESIAN_POINT('',(-4.74092640182036E-16,-42.5504537371116,2.50000000000001));
#410=CARTESIAN_POINT('Origin',(-2.45645571266492E-23,-42.5504537371116,
0.));
#411=CARTESIAN_POINT('Origin',(-2.45645571266492E-23,-42.5504537371116,
0.));
#412=CARTESIAN_POINT('',(-4.74092619277375E-16,0.,2.50000000000001));
#413=CARTESIAN_POINT('',(-4.74092615617479E-16,7.44954626288835,2.50000000000001));
#414=CARTESIAN_POINT('',(1.67930915830639E-16,0.,-2.50000000000001));
#415=CARTESIAN_POINT('Origin',(0.,0.,0.));
#416=CARTESIAN_POINT('Origin',(0.,0.,0.));
#417=CARTESIAN_POINT('Origin',(-2.50000000000001,-42.5504537371116,1.66018457661843E-16));
#418=CARTESIAN_POINT('Origin',(0.,61.9999999999263,0.));
#419=CARTESIAN_POINT('',(1.88082625730278E-15,61.9999999999262,-27.9999999999945));
#420=CARTESIAN_POINT('',(-3.42223477206872E-15,61.9999999999262,27.9999999999945));
#421=CARTESIAN_POINT('Origin',(0.,61.9999999999262,0.));
#422=CARTESIAN_POINT('Origin',(0.,61.9999999999262,0.));
#423=CARTESIAN_POINT('Origin',(6.7762635780344E-18,57.9999999999263,0.));
#424=CARTESIAN_POINT('',(2.15629198620982E-15,57.9999999999263,-31.9999999999942));
#425=CARTESIAN_POINT('',(-3.91209349369278E-15,57.9999999999263,31.9999999999942));
#426=CARTESIAN_POINT('Origin',(6.7762635780344E-18,57.9999999999263,0.));
#427=CARTESIAN_POINT('Origin',(6.7762635780344E-18,57.9999999999263,0.));
#428=CARTESIAN_POINT('Origin',(-3.42223477403384E-15,57.9999999999263,27.9999999999942));
#429=CARTESIAN_POINT('Origin',(0.,0.,0.));
#430=CARTESIAN_POINT('',(2.14951572263178E-15,23.9999999999264,-31.9999999999942));
#431=CARTESIAN_POINT('',(-6.06838546811161E-15,23.9999999999264,31.9999999999942));
#432=CARTESIAN_POINT('Origin',(0.,23.9999999999264,0.));
#433=CARTESIAN_POINT('Origin',(0.,23.9999999999264,0.));
#434=CARTESIAN_POINT('',(-6.0683854799026E-15,1.92530600072188E-39,31.9999999999942));
#435=CARTESIAN_POINT('Origin',(0.,23.9999999999264,0.));
#436=CARTESIAN_POINT('',(1.95477488721303E-15,20.9999999999264,-28.9999999999939));
#437=CARTESIAN_POINT('',(-3.55147571900045E-15,20.9999999999264,28.9999999999939));
#438=CARTESIAN_POINT('Origin',(6.7762635780344E-18,20.9999999999264,0.));
#439=CARTESIAN_POINT('Origin',(6.7762635780344E-18,20.9999999999264,0.));
#440=CARTESIAN_POINT('Origin',(-3.55147571752661E-15,23.9999999999264,28.9999999999942));
#441=CARTESIAN_POINT('Origin',(0.,0.,0.));
#442=CARTESIAN_POINT('',(1.95477488721303E-15,12.9999999999123,-28.9999999999939));
#443=CARTESIAN_POINT('',(-5.49947433477479E-15,12.9999999999123,28.9999999999939));
#444=CARTESIAN_POINT('Origin',(6.7762635780344E-18,12.9999999999123,0.));
#445=CARTESIAN_POINT('Origin',(6.7762635780344E-18,12.9999999999123,0.));
#446=CARTESIAN_POINT('',(-5.49947434116157E-15,1.74480856315415E-39,28.9999999999939));
#447=CARTESIAN_POINT('Origin',(0.,9.99999999991231,0.));
#448=CARTESIAN_POINT('',(1.947998623635E-15,6.99999999991233,-28.9999999999939));
#449=CARTESIAN_POINT('',(-3.55147571900045E-15,6.99999999991233,28.9999999999939));
#450=CARTESIAN_POINT('Origin',(0.,6.99999999991233,0.));
#451=CARTESIAN_POINT('Origin',(0.,6.99999999991233,0.));
#452=CARTESIAN_POINT('Origin',(-3.55147571752658E-15,9.99999999991231,28.9999999999939));
#453=CARTESIAN_POINT('Origin',(-28.9999999999939,6.99999999991232,1.94817577868489E-15));
#454=CARTESIAN_POINT('',(1.01999999252772E-6,6.99999999991232,10.2));
#455=CARTESIAN_POINT('',(1.01999999180865E-6,6.99999999991232,15.8));
#456=CARTESIAN_POINT('Origin',(1.01999999233964E-6,6.99999999991232,13.));
#457=CARTESIAN_POINT('Origin',(1.01999999233964E-6,6.99999999991232,13.));
#458=CARTESIAN_POINT('',(5.55122753517732E-16,6.99999999991231,-8.26415360703421));
#459=CARTESIAN_POINT('Origin',(0.,6.99999999991231,0.));
#460=CARTESIAN_POINT('Origin',(0.,6.99999999991231,0.));
#461=CARTESIAN_POINT('',(3.72032475143392E-16,1.15476347647074,-5.53847505242265));
#462=CARTESIAN_POINT('',(-4.56944172733918E-16,6.99999999991231,-8.26415360703421));
#463=CARTESIAN_POINT('',(-6.7149131134791E-16,1.15476347647074,5.53847505242265));
#464=CARTESIAN_POINT('Origin',(0.,1.15476347647074,3.3881317890172E-18));
#465=CARTESIAN_POINT('Origin',(0.,1.15476347647074,3.3881317890172E-18));
#466=CARTESIAN_POINT('Origin',(6.7762635780344E-18,1.99999999997899,3.3881317890172E-18));
#467=CARTESIAN_POINT('',(2.50274797784583E-16,-6.93889390390723E-15,-3.725859478385));
#468=CARTESIAN_POINT('',(-4.4950992583225E-16,-6.93889390390723E-15,3.725859478385));
#469=CARTESIAN_POINT('Origin',(0.,-6.93889390390723E-15,0.));
#470=CARTESIAN_POINT('Origin',(0.,-6.93889390390723E-15,0.));
#471=CARTESIAN_POINT('Origin',(-4.49509924849674E-16,1.99999999997899,3.72585947838505));
#472=CARTESIAN_POINT('Origin',(-3.725859478385,0.,2.5410988417629E-16));
#473=CARTESIAN_POINT('Origin',(1.01999999233964E-6,16.9999999999123,13.));
#474=CARTESIAN_POINT('',(1.01999999252772E-6,16.9999999999123,10.2));
#475=CARTESIAN_POINT('',(1.01999999180865E-6,16.9999999999123,15.8));
#476=CARTESIAN_POINT('Origin',(1.01999999233964E-6,16.9999999999123,13.));
#477=CARTESIAN_POINT('Origin',(1.01999999233964E-6,16.9999999999123,13.));
#478=CARTESIAN_POINT('',(1.01999999180865E-6,16.9999999999123,15.8));
#479=CARTESIAN_POINT('Origin',(1.01999999233964E-6,16.9999999999123,13.));
#480=UNCERTAINTY_MEASURE_WITH_UNIT(LENGTH_MEASURE(0.01),#484,
'DISTANCE_ACCURACY_VALUE',
'Maximum model space distance between geometric entities at asserted c
onnectivities');
#481=UNCERTAINTY_MEASURE_WITH_UNIT(LENGTH_MEASURE(0.01),#484,
'DISTANCE_ACCURACY_VALUE',
'Maximum model space distance between geometric entities at asserted c
onnectivities');
#482=(
GEOMETRIC_REPRESENTATION_CONTEXT(3)
GLOBAL_UNCERTAINTY_ASSIGNED_CONTEXT((#480))
GLOBAL_UNIT_ASSIGNED_CONTEXT((#484,#486,#487))
REPRESENTATION_CONTEXT('','3D')
);
#483=(
GEOMETRIC_REPRESENTATION_CONTEXT(3)
GLOBAL_UNCERTAINTY_ASSIGNED_CONTEXT((#481))
GLOBAL_UNIT_ASSIGNED_CONTEXT((#484,#486,#487))
REPRESENTATION_CONTEXT('','3D')
);
#484=(
LENGTH_UNIT()
NAMED_UNIT(*)
SI_UNIT(.MILLI.,.METRE.)
);
#485=(
LENGTH_UNIT()
NAMED_UNIT(*)
SI_UNIT($,.METRE.)
);
#486=(
NAMED_UNIT(*)
PLANE_ANGLE_UNIT()
SI_UNIT($,.RADIAN.)
);
#487=(
NAMED_UNIT(*)
SI_UNIT($,.STERADIAN.)
SOLID_ANGLE_UNIT()
);
#488=SHAPE_DEFINITION_REPRESENTATION(#489,#490);
#489=PRODUCT_DEFINITION_SHAPE('',$,#492);
#490=SHAPE_REPRESENTATION('',(#269),#482);
#491=PRODUCT_DEFINITION_CONTEXT('part definition',#496,'design');
#492=PRODUCT_DEFINITION('123123123','123123123 v2',#493,#491);
#493=PRODUCT_DEFINITION_FORMATION('',$,#498);
#494=PRODUCT_RELATED_PRODUCT_CATEGORY('123123123 v2','123123123 v2',(#498));
#495=APPLICATION_PROTOCOL_DEFINITION('international standard',
'automotive_design',2009,#496);
#496=APPLICATION_CONTEXT(
'Core Data for Automotive Mechanical Design Process');
#497=PRODUCT_CONTEXT('part definition',#496,'mechanical');
#498=PRODUCT('123123123','123123123 v2',$,(#497));
#499=PRESENTATION_STYLE_ASSIGNMENT((#502));
#500=PRESENTATION_STYLE_ASSIGNMENT((#503));
#501=PRESENTATION_STYLE_ASSIGNMENT((#504));
#502=SURFACE_STYLE_USAGE(.BOTH.,#505);
#503=SURFACE_STYLE_USAGE(.BOTH.,#506);
#504=SURFACE_STYLE_USAGE(.BOTH.,#507);
#505=SURFACE_SIDE_STYLE('',(#508));
#506=SURFACE_SIDE_STYLE('',(#509));
#507=SURFACE_SIDE_STYLE('',(#510));
#508=SURFACE_STYLE_FILL_AREA(#511);
#509=SURFACE_STYLE_FILL_AREA(#512);
#510=SURFACE_STYLE_FILL_AREA(#513);
#511=FILL_AREA_STYLE('Steel - Satin',(#514));
#512=FILL_AREA_STYLE('Plastic - Matte (Black)',(#515));
#513=FILL_AREA_STYLE('Plastic - Matte (Yellow)',(#516));
#514=FILL_AREA_STYLE_COLOUR('Steel - Satin',#517);
#515=FILL_AREA_STYLE_COLOUR('Plastic - Matte (Black)',#518);
#516=FILL_AREA_STYLE_COLOUR('Plastic - Matte (Yellow)',#519);
#517=COLOUR_RGB('Steel - Satin',0.627450980392157,0.627450980392157,0.627450980392157);
#518=COLOUR_RGB('Plastic - Matte (Black)',0.0980392156862745,0.0980392156862745,
0.0980392156862745);
#519=COLOUR_RGB('Plastic - Matte (Yellow)',0.909803921568627,0.67843137254902,
0.137254901960784);
ENDSEC;
END-ISO-10303-21;
